His İnfernal Majesty

HIM Fan Club
 
AnasayfaAnasayfa  SSSSSS  AramaArama  Üye ListesiÜye Listesi  Kullanıcı GruplarıKullanıcı Grupları  Kayıt OlKayıt Ol  Giriş yapGiriş yap  

Paylaş | 
 

 H.I.M. - Sweet 666 (bass)

Önceki başlık Sonraki başlık Aşağa gitmek 
YazarMesaj
SolitaryMan
Moderatör
Moderatör


Mesaj Sayısı : 133
Kayıt tarihi : 01/11/08

MesajKonu: H.I.M. - Sweet 666 (bass)   Cuma Kas. 14, 2008 8:23 pm

*intro

G--------
D--------
A-5-4-0--
E--------

G-----------------------------------------------------------
D------------5-5-5-5-5-5-4-4-4-4------------5-5-5-5-4-4-4-4-
A--2-2-2-2-2---------------------2-2-2-2-2------------------
E----------------------------------------------------------- X2

G----------------
D----------------
A-2-2-2-2-2-0----
E-------------3--


*verse

G----------------------------------------
D----------------------------------------
A---------------5-5-5-5-5-5--------------
E-3-3-3-3-3-3-3--------------2-2-2-2-2-2- repeat through verse

occaisionally this little bit is played

G----------
D----------
A-5-4-0----
E-------3--


*chorus

G-------------------------------------------
D-------------------------------------------
A-2-2-2-2-2-2-2-2-5-5-5---------------------
E-----------------------5-5-5-5-3-3-3-3----- play through chorus

G----------
D----------
A-5-4-0----
E-------3-- this bit is sometimes played again

intro again before next verse and chorus

intro again then pause

last chorus is played slightly higher

G--------------------------------------------------------------------
D--------------------------------------------------------------------
A-4-4-4-4-4-4-4-7-7-7-7-7-7------------------------------------------
E---------------------------7-7-7-7-7-5-5-5-5-7-7-7-7-7 repeat xlots

finish with

G-------------------------------
D-------------------------------
A-------------------------------
E-7-7-7-7-7-5-5-5-5-7-7-7-7-7--- a few times then finally

G----------
D----------
A-8-7-2-4--
E----------
Sayfa başına dön Aşağa gitmek
Kullanıcı profilini gör
 
H.I.M. - Sweet 666 (bass)
Önceki başlık Sonraki başlık Sayfa başına dön 
1 sayfadaki 1 sayfası

Bu forumun müsaadesi var:Bu forumdaki mesajlara cevap veremezsiniz
His İnfernal Majesty :: HIM Multimedya :: Tab ve Akorlar-
Buraya geçin: